Аккорды,ноты, табулатуры к песням

Перейти вниз

Аккорды,ноты, табулатуры к песням

Сообщение автор SANCHES в Вт Авг 05, 2008 3:23 am

Здесь выкладываем ноты, аккорды , табулатуры ,по возможности и видео уроки к песням Tokio Hotel.


Spring Nicht
Dm
Uber den Dachern
Ist es so kalt
B
Und so still
Dm
Ich schweig deinen Namen
Weil du ihn jetzt
B
Nicht horen willst
Dm
Der Abgrund der Stadt
Verschlingt jede
B
Trane die fallt
Dm
Da unten ist nichts mehr
Was Dich hier oben
B
Noch halt

C B
Ich schrei in die Nacht fur dich
C
Lass mich nicht im Stich
Dm
Spring nicht
B
Die Lichter fangen dich nicht
C
Sie betrugen dich
Dm
Spring nicht
B
Erinner dich
C
An dich und mich
F7 B
Die Welt da unten zahlt nicht
C Dm
Bitte spring nicht

Dm
In deinen Augen
B
Scheint alles sinnlos und leer
Dm
Der Schnee fallt einsam
B
Du spurst ihn schon lange nicht mehr
Dm
Irgendwo da draussen
B
Bist du verloren gegangen
Dm
Du traumst von dem Ende
B
Um nochmal von vorn anzufangen

C B
Ich schrei in die Nacht fur dich
C
Lass mich nicht im Stich
Dm
Spring nicht
B
Die Lichter fangen dich nicht
C
Sie betrugen dich
Dm
Spring nicht
B
Erinner dich
C
An dich und mich
F7 B
Die Welt da unten zahlt nicht

Bitte spring nicht
C
Spring nicht!

Dm B
Ich weiss nicht wie lang
Dm B
Ich dich halten kann
Dm B
Ich weiss nicht wie lang

C B
Nimm meine Hand
C
Wir fangen nochmal an
B
Spring nicht

C B
Ich schrei in die Nacht fur dich
C
Lass mich nicht im Stich
Dm
Spring nicht
B
Die Lichter fangen dich nicht
C
Sie betrugen dich
Dm
Spring nicht
B
Erinner dich
C
An dich und mich
F7 B
Die Welt da unten zahlt nicht
Bitte spring nicht
C
Spring nicht!
C B
Und halt Dich das auch nicht zuruck
C Dm
Dann spring ich fur dich

IN DIE NACHT – Tokio Hotel
-------------------------------------------------------------------------------


Intro
e|---------------------------------------------------------------------------|
B|---------------------------------------------------------------------------|
G|-7/9-9-9/11-11-11-11-5/7-7-7/9-9-9-9-3/5-5-5/7-7-7-7-2-2-14-14-14-14-------|
D|-0-0-0-0--0--0--0--0-0-0-0-0-0-0-0-0-0-0-0-0-0-0-0-0-0-0--0--0--0--0-------|
A|---------------------------------------------------------------------------|
E|---------------------------------------------------------------------------|

Verse
e|---------------------------------------------------------------------------|
B|---------------------------------------------------------------------------|
G|-7/9-9-9/11-11-11-11-5/7-7-7/9-9-9-9-3/5-5-5/7-7-7-7-2-2-14-14-14-14-------|
D|-0-0-0-0--0--0--0--0-0-0-0-0-0-0-0-0-0-0-0-0-0-0-0-0-0-0--0--0--0--0-------|3Ч
A|---------------------------------------------------------------------------|
E|---------------------------------------------------------------------------|

e|---------------------------------------------------------------------------|
B|---------------------------------------------------------------------------|
G|-7/9-9-9/11-11-11-11-5/7-7-7/9-9-9-9-3/5-5-5/7-7-7-7-2-2-2-2-2-2-----------|
D|-0-0-0-0--0--0--0--0-0-0-0-0-0-0-0-0-0-0-0-0-0-0-0-0-0-0-0-0-0-0-----------|
A|---------------------------------------------------------------------------|
E|---------------------------------------------------------------------------|

Chorus
e|---------333333------------------------------------------------------------|
B|-333333--000000—-33-1111—--------------------------------------------------|
G|-000000--000000--22-2222--—----7/9-9-9/11-11-11-11-------------------------|
D|-222222--000000--22-2222-------0-0-0-0--0--0--0--0-------------------------|
A|-333333--222222------------------------------------------------------------|
E|---------333333------------------------------------------------------------|

e|---------333333------------------------------------------------------------|
B|-333333--000000—-33-1111---------------------------------------------------|
G|-000000--000000--22-2222—--------------------------------------------------|
D|-222222--000000--22-2222---------------------------------------------------|
A|-333333--222222------------------------------------------------------------|
E|---------333333------------------------------------------------------------|

e|---------------------------------------------------------------------------|
B|---------------------------------------------------------------------------|
G|-7/9-9-9/11-11-11-11-5/7-7-7/9-9-9-9-3/5-5-5/7-7-7-7-2-2-14-14-14-14-------|
D|-0-0-0-0--0--0--0--0-0-0-0-0-0-0-0-0-0-0-0-0-0-0-0-0-0-0--0--0--0--0-------|
A|---------------------------------------------------------------------------|
E|---------------------------------------------------------------------------|

Verse
e|---------------------------------------------------------------------------|
B|---------------------------------------------------------------------------|
G|-7/9-9-9/11-11-11-11-5/7-7-7/9-9-9-9-3/5-5-5/7-7-7-7-2-2-14-14-14-14-------|
D|-0-0-0-0--0--0--0--0-0-0-0-0-0-0-0-0-0-0-0-0-0-0-0-0-0-0--0--0--0--0-------|
A|---------------------------------------------------------------------------|
E|---------------------------------------------------------------------------|

e|---------------------------------------------------------------------------|
B|---------------------------------------------------------------------------|
G|-7/9-9-9/11-11-11-11-5/7-7-7/9-9-9-9-3/5-5-5/7-7-7-7-2-2-2-2-2-2-----------|
D|-0-0-0-0--0--0--0--0-0-0-0-0-0-0-0-0-0-0-0-0-0-0-0-0-0-0-0-0-0-0-----------|
A|---------------------------------------------------------------------------|
E|---------------------------------------------------------------------------|

Chorus
e|---------333333------------------------------------------------------------|
B|-333333--000000—-33-1111—--------------------------------------------------|
G|-000000--000000--22-2222--—----7/9-9-9/11-11-11-11-------------------------|
D|-222222--000000--22-2222-------0-0-0-0--0--0--0--0-------------------------|
A|-333333--222222------------------------------------------------------------|
E|---------333333------------------------------------------------------------|

e|---------333333----------------2/3-3--22222--2/3-3--22222------------------|
B|-333333--000000—-33-1111-------3---3--33333--3---3--33333------------------|
G|-000000--000000--22-2222-----—-2---2--22222--2---2--22222------------------|
D|-222222--000000--22-2222-------0---0--00000--0---0--00000------------------|
A|-333333--222222------------------------------------------------------------|
E|---------333333------------------------------------------------------------|

Bridge
e|---------333333----------3-------------------------------------------------|
B|-333333--000000--333333--0-------------------------------------------------|
G|-000000--000000--000000--0-------------------------------------------------|
D|-222222--000000--222222--0-------------------------------------------------|
A|-333333--222222--333333--2-------------------------------------------------|
E|---------333333----------3-------------------------------------------------|

e|---------------------------------------------------------------------------|
B|---------------------------------------------------------------------------|
G|-7/9-9-9/11-11-11-11-5/7-7-7/9-9-9-9-3/5-5-5/7-7-7-7-2-2-2-2-2-2-----------|
D|-0-0-0-0--0--0--0--0-0-0-0-0-0-0-0-0-0-0-0-0-0-0-0-0-0-0-0-0-0-0-----------|
A|---------------------------------------------------------------------------|
E|---------------------------------------------------------------------------|

e|---------333333------------------------------------------------------------|
B|-333333--000000—-33-1111—--------------------------------------------------|
G|-000000--000000--22-2222--—----7/9-9-9/11-11-11-11-------------------------|
D|-222222--000000--22-2222-------0-0-0-0--0--0--0--0-------------------------|
A|-333333--222222------------------------------------------------------------|
E|---------333333------------------------------------------------------------|

Chorus
e|---------333333------------------------------------------------------------|
B|-333333--000000—-33-1111—--------------------------------------------------|
G|-000000--000000--22-2222--—----7/9-9-9/11-11-11-11-------------------------|
D|-222222--000000--22-2222-------0-0-0-0--0--0--0--0-------------------------|
A|-333333--222222------------------------------------------------------------|
E|---------333333------------------------------------------------------------|

e|---------333333------------------------------------------------------------|
B|-333333--000000—-33-1111---------------------------------------------------|
G|-000000--000000--22-2222—--------------------------------------------------|
D|-222222--000000--22-2222---------------------------------------------------|
A|-333333--222222------------------------------------------------------------|
E|---------333333------------------------------------------------------------|

e|---------------------------------------------------------------------------|
B|---------------------------------------------------------------------------|
G|-7/9-9-9/11-11-11-11--7/9-9-9/11-11-11-11----------------------------------|
D|-0-0-0-0--0--0--0--0--0-0-0-0--0--0--0--0----------------------------------|
A|---------------------------------------------------------------------------|
E|---------------------------------------------------------------------------|

e|---------------------------------------------------------------------------|
B|---------------------------------------------------------------------------|
G|-7/9-9-9/11-11-11-11-5/7-7-7/9-9-9-9-3/5-5-5/7-7-7-7-2---------------------|
D|-0-0-0-0--0--0--0--0-0-0-0-0-0-0-0-0-0-0-0-0-0-0-0-0-0---------------------|
A|---------------------------------------------------------------------------|
E|---------------------------------------------------------------------------|

Hilf mir fliegen



Intro:
D,A,G x2

Verse1:
D A G
Ich bin hier irgendwo gelander
D A G
Kann nicht mehr sagen,wer ich bin
Hm G
Hab die Erinnerung verloren
D A G
Die Bilder geben keinen Sinn
A G
Bring mich zuruck,bring mich nach Haus
A G
Ich schaffґs nicht allein hier raus

Chorus:
D A G
Komm und hilf mir fliegen
D A G
Leih mir deine Flugel
A
Ich tausch sie gegen die Welt
Hm
Gegen alles,was mich halt
G
Ich tausch sie heute Nacht
D
Gegen alles,was ich hab

Verse2:
Erzahl mir alle Lugen
Mach es so,dass ich es glaub
Sonst krieg ich keine Luft merh
Und diese Stille macht mich taub
Nur graue Mauern und kein Licht
Alles hier ist ohne mich

Chorus:
Komm und hilf mir fliegen.....

Bridge:
G
Ich find mich gier nicht wieder
Erken mich selbst nicht mehr
Komm und zieh mich raus hier
Ich gib alles dafur her
A G
Ich hab Fernweh
und will zuruck
Entfern mich immmer weiter
A
Mit jeden Augenblick

D A G
Ich bin hier irgendwo gelandet

Chorus:
Kommm und hilf mir fliegen
Leih mir deine Flugel
Ich tausch sie gegen die Welt x2
Gegen alles,was mich halt
Ich tausch sie heute Nacht


D A G
Gegen alles,was ich hab
Вот Hilf mir Fliegen)
avatar
SANCHES
True-бугиKid

Количество сообщений : 61
Возраст : 26
Откуда : Караганда ( ass of the world)
Дата регистрации : 2008-08-05

Посмотреть профиль

Вернуться к началу Перейти вниз

Re: Аккорды,ноты, табулатуры к песням

Сообщение автор SANCHES в Вт Авг 05, 2008 3:24 am

Durch Den Monsun Chords

E C E
Das Fenster цffnet sich nicht mehr
C E
Hier drin ist es voll von dir und leer
C Am G
Und vor mir geht die letzte Kerze aus


E C E
Ich warte schon ne Ewigkeit
C E
Und endlich ist es jetzt so weit
C Asus4 A
Da drauЯen ziehn die schwarzen Wolken auf


C
Ich muss durch den Monsun
D
hinter die Welt
Em
ans Ende der Zeit
Hm
bis kein Regen mehr fдllt
C
Gegen den Sturm
D
am Abgrund entlang
Hm Em
Und wenn ich nicht mehr kann denk ich daran
Cmaj7 D
Irgendwann laufen wir zusammen
E C (sus4)
durch den Monsun
E C
Dann wird alles gut


C E
Der halbe Mond versinkt vor mir
C E
War der eben noch bei dir
C Am G
Und hдlt er wirklich was er mir verspricht

C E
Ich weiЯ das ich dich finden kann
C E
Ich hцr deinen Namen im Orkan
C Asus4 A
Und ich glaube denn mehr als glauben kann ich nicht


C
Ich muss durch den Monsun
D
hinter die Welt
Em
ans Ende der Zeit
Hm
bis kein Regen mehr fдllt
C
Gegen den Sturm
D
am Abgrund entlang
Hm Em
Und wenn ich nicht mehr kann denk ich daran
Cmaj D
Irgendwann laufen wir zusammen
Em Hm
weil und einfach nichts mehr halten kann
C D
durch den Monsun


Esus4 E Csus4 C
Hey!
Esus4 E Csus4 C
Hey!!!

Esus4 E Csus4 C
Ich kдmpfe mich durch die Mдchte
Esus4 E Csus4 C
hinter dieser Tьr
Esus4 E Csus4 C
werde sie besiegen und dann
Esus4 E Csus4 C
fьhren sie mich zu dir


Cmaj7


E Cmaj7
dann wird alles gut
E Cmaj7
wird alles gut
E Cmaj7
dann wird alles gut
E Cmaj7
wird alles gut

C
Ich muss durch den Monsun
D
hinter die Welt
Em
ans Ende der Zeit
Hm
bis kein Regen mehr fдllt
C
Gegen den Sturm
D
am Abgrund entlang
Hm Em
Und wenn ich nicht mehr kann denk ich daran
C D
Irgendwann laufen wir zusammen
Em Hm
weil und einfach nichts mehr halten kann
C D
durch den Monsun


GEH
Tuning: d#A#F#C#G#D#

Intro:
guitar 1:
d#|------------------------------------------|
A#|---11111111--1111111--00000000--00000000--|
F#|---22222222--2222222--00000000--00000000--|
C#|---22222222--3333333--00000000--22222222--|
G#|------------------------------------------|
D#|------------------------------------------|

guitar 2
d#|--------5----0----------3--------|
A#|----------------1----------0-----|
F#|------------------------------0--|
C#|---------------------------------|
G#|---------------------------------|
D#|---------------------------------|

Verse:
guitar 1:
d#|------------------------------------------|
A#|---11111111--1111111--00000000--00000000--|
F#|---22222222--2222222--00000000--00000000--| x8
C#|---22222222--3333333--00000000--22222222--|
G#|------------------------------------------|
D#|------------------------------------------|

guitar 2
d#|------------------------------------------|
A#|------------------------------------------|
F#|------------------------------------------|
C#|------------------------------------------| x8
G#|---77777777--3333333--55555555--22222222--|
D#|---55555555--1111111--33333333--00000000--|

When the singer sings 'geh', guitar 2 plays this:
d#|--------5----0----------3--------|
A#|----------------1----------0-----|
F#|------------------------------0--|
C#|---------------------------------|
G#|---------------------------------|
D#|---------------------------------|

chorus
Geh, lass uns hinter dir und mir
d#|--0-0---3-3-3-3--3-3---1-1---0-0-0-0--0-0--|
A#|--1-1---0-0-0-0--0-0---3-3---1-1-1-1--1-1--|
F#|--0-0---0-0-0-0--0-0---2-2---2-2-2-2--2-2--|
C#|--2-2---0-0-0-0--0-0---0-0---2-2-2-2--2-2--|
G#|--3-3---2-2-2-2--2-2---------0-0-0-0--0-0--|
D#|--------3-3-3-3--3-3-----------------------|

Versuch nicht zu verstehen Warum es nicht mehr geht
d#|--0-0---3-3-3-3--3-3---1-1---1-1-1-1---0-0-0--0--3-3--|
A#|--1-1---0-0-0-0--0-0---1-1---1-1-1-1---1-1-1--1--0-0--|
F#|--0-0---0-0-0-0--0-0---2-2---2-2-2-2---2-2-2--0--0-0--|
C#|--2-2---0-0-0-0--0-0---3-3---3-3-3-3---2-2-2--2--0-0--|
G#|--3-3---2-2-2-2--2-2---3-3---3-3-3-3---0-0-0--3--2-2--|
D#|--------3-3-3-3--3-3---1-1---1-1-1-1-------------3-3--|

Geh,versuch uns beide zu verlier´n
d#|--0-0---3-3-3-3--3-3---1-1---0-0-0-0--0-0--|
A#|--1-1---0-0-0-0--0-0---3-3---1-1-1-1--1-1--|
F#|--0-0---0-0-0-0--0-0---2-2---2-2-2-2--2-2--|
C#|--2-2---0-0-0-0--0-0---0-0---2-2-2-2--2-2--|
G#|--3-3---2-2-2-2--2-2---------0-0-0-0--0-0--|
D#|--------3-3-3-3--3-3-----------------------|

Für uns wird´s erst weitergehen wenn wir uns nicht mehr sehen
d#|---0-0--3-3-3-3--3-3---0-0-0-0-0-0-0-0-0-0--|
A#|---1-1--0-0-0-0--0-0---1-1-1-1-1-1-1-1-1-1--|
F#|---0-0--0-0-0-0--0-0---2-2-2-2-2-2-2-2-2-2--|
C#|---2-2--0-0-0-0--0-0---2-2-2-2-2-2-2-2-2-2--|
G#|---3-3--2-2-2-2--2-2---0-0-0-0-0-0-0-0-0-0--|
D#|--------3-3-3-3--3-3------------------------|

Geh, geh!
d#|--0-0---3-3---0-0-0-0-0-0-0--|
A#|--1-1---0-0---1-1-1-1-1-1-1--|
F#|--0-0---0-0---2-2-2-2-2-2-2--|
C#|--2-2---0-0---2-2-2-2-2-2-2--|
G#|--3-3---2-2---0-0-0-0-0-0-0--|
D#|--------3-3------------------|


Verse
Chorus

Bridge
Ich brech´ das Licht Die Schatten fall´n auf mich
d#|--1-1---3-3-3-3--3-3---0-0---0-0-0-0--0-0--|
A#|--3-3---0-0-0-0--0-0---0-0---1-1-1-1--1-1--|
F#|--2-2---0-0-0-0--0-0---0-0---2-2-2-2--2-2--|
C#|--0-0---0-0-0-0--0-0---2-2---2-2-2-2--2-2--|
G#|--------2-2-2-2--2-2---2-2---0-0-0-0--0-0--|
D#|--------3-3-3-3--3-3---0-0-----------------|

Ich seh uns nicht alle Schatten fall´n auf mich
d#|--1-1---3-3-3-3--3-3---0-0---0-0-0-0--0-0--|
A#|--3-3---0-0-0-0--0-0---0-0---1-1-1-1--1-1--|
F#|--2-2---0-0-0-0--0-0---0-0---2-2-2-2--2-2--|
C#|--0-0---0-0-0-0--0-0---2-2---2-2-2-2--2-2--|
G#|--------2-2-2-2--2-2---2-2---0-0-0-0--0-0--|
D#|--------3-3-3-3--3-3---0-0-----------------|

Auf mich alle Schatten fall´n auf mich
d#|--1--1-1-1-1-1---3--3-3-3-3-3---0--0-0-0-0-0--0--0-0-0-0-0--|
A#|--3--3-3-3-3-3---0--0-0-0-0-0---0--0-0-0-0-0--1--1-1-1-1-1--|
F#|--2--2-2-2-2-2---0--0-0-0-0-0---0--0-0-0-0-0--2--2-2-2-2-2--|
C#|--0--0-0-0-0-0---0--0-0-0-0-0---2--2-2-2-2-2--2--2-2-2-2-2--|
G#|-----------------2--2-2-2-2-2---2--2-2-2-2-2--0--0-0-0-0-0--|
D#|-----------------3--3-3-3-3-3---0--0-0-0-0-0----------------|


Tage geh´n vorbei Ohne da zu sein
guitar 2
d#|------------------------------------------|
A#|------------------------------------------|
F#|------------------------------------------|
C#|---77777777--3333333--55555555--22222222--| x2
G#|---77777777--3333333--55555555--22222222--|
D#|---55555555--1111111--33333333--00000000--|

Das ist alles was uns bleibt
d#|---3-3-3-3-3----0-0-0-0-0-0----|
A#|---0-0-0-0-0----3-3-3-3-3-3----|
F#|---0-0-0-0-0----0-0-0-0-0-0----|
C#|---0-0-0-0-0----2-2-2-2-2-2----|
G#|---2-2-2-2-2----2-2-2-2-2-2----|
D#|---3-3-3-3-3----0-0-0-0-0-0----|


Chorus
Wenn du gehst, wenn du jetz gehst
d#|--0-0---3-3-3-3--3-3---1-1---0-0-0-0--0-0--|
A#|--1-1---0-0-0-0--0-0---3-3---1-1-1-1--1-1--|
F#|--0-0---0-0-0-0--0-0---2-2---2-2-2-2--2-2--|
C#|--2-2---0-0-0-0--0-0---0-0---2-2-2-2--2-2--|
G#|--3-3---2-2-2-2--2-2---------0-0-0-0--0-0--|
D#|--------3-3-3-3--3-3-----------------------|

Versuch nicht zu verstehen Warum es nicht mehr geht
d#|--0-0---3-3-3-3--3-3---1-1---1-1-1-1---0-0-0-0--3-3--|
A#|--1-1---0-0-0-0--0-0---1-1---1-1-1-1---1-1-1-1--0-0--|
F#|--0-0---0-0-0-0--0-0---2-2---2-2-2-2---2-2-2-2--0-0--|
C#|--2-2---0-0-0-0--0-0---3-3---3-3-3-3---2-2-2-2--0-0--|
G#|--3-3---2-2-2-2--2-2---3-3---3-3-3-3---0-0-0-0--2-2--|
D#|--------3-3-3-3--3-3---1-1---1-1-1-1------------3-3--|

Geh,versuch uns beide zu verlier´n
d#|--0-0---3-3-3-3--3-3---1-1---0-0-0-0--0-0--|
A#|--1-1---0-0-0-0--0-0---3-3---1-1-1-1--1-1--|
F#|--0-0---0-0-0-0--0-0---2-2---2-2-2-2--2-2--|
C#|--2-2---0-0-0-0--0-0---0-0---2-2-2-2--2-2--|
G#|--3-3---2-2-2-2--2-2---------0-0-0-0--0-0--|
D#|--------3-3-3-3--3-3-----------------------|

Für uns wird´s erst weitergehen wenn wir uns nicht mehr sehen
d#|---0-0--3-3-3-3--3-3---0-0-0-0-0-0-0-0-0-0--|
A#|---1-1--0-0-0-0--0-0---1-1-1-1-1-1-1-1-1-1--|
F#|---0-0--0-0-0-0--0-0---2-2-2-2-2-2-2-2-2-2--|
C#|---0-0--0-0-0-0--0-0---2-2-2-2-2-2-2-2-2-2--|
G#|---2-2--2-2-2-2--2-2---0-0-0-0-0-0-0-0-0-0--|
D#|---3-3--3-3-3-3--3-3------------------------|

Geh, geh!
d#|--0-0---3-3---0-0-0-0-0-0-0--|
A#|--1-1---0-0---1-1-1-1-1-1-1--|
F#|--0-0---0-0---2-2-2-2-2-2-2--|
C#|--2-2---0-0---2-2-2-2-2-2-2--|
G#|--3-3---2-2---0-0-0-0-0-0-0--|
D#|--------3-3------------------|

Outro:
guitar 1:
d#|---0000000-0000000----|
A#|---1111001-1111001----|
F#|---2222222-2222222----|
C#|---2222222-2222222----|
G#|----------------------|
D#|----------------------|

guitar 2
d#|-------------------------------|
A#|-------------------------------|
F#|-------------------------------|
C#|-------------------------------|
G#|---777777777777777777777777----|
D#|---555555555555555555555555----|

Tage gehen vorbei ohne da zu sein...
guitar 1:
d#|---0000000-0000000---|
A#|---1111001-1111001---|
F#|---2222222-2222002---|
C#|---2222222-2222002---| play this untill the end of the song
G#|---------------------|
D#|---------------------|

guitar 2
d#|------------------------------------------|
A#|------------------------------------------|
F#|------------------------------------------|
C#|------------------------------------------|
G#|---77777777--3333333--55555555--22222222--|
D#|---55555555--1111111--33333333--00000000--|


Bleib
d#|----0-----|
A#|----1-----|
F#|----2-----|
C#|----2-----|
G#|----------|
D#|----------|
avatar
SANCHES
True-бугиKid

Количество сообщений : 61
Возраст : 26
Откуда : Караганда ( ass of the world)
Дата регистрации : 2008-08-05

Посмотреть профиль

Вернуться к началу Перейти вниз

Re: Аккорды,ноты, табулатуры к песням

Сообщение автор MISSISSIPI в Вт Авг 05, 2008 3:46 am

Сань, очуметь)))))
avatar
MISSISSIPI
Ветеранище

Количество сообщений : 9
Возраст : 24
Откуда : Ну все таже жопа-Караганда!
Дата регистрации : 2008-08-05

Посмотреть профиль

Вернуться к началу Перейти вниз

Re: Аккорды,ноты, табулатуры к песням

Сообщение автор Nagasaki в Вт Авг 05, 2008 3:51 am

Благо - только она здесь эти заклятия понимает. xD

_________________
.Royal.

>_<
А о чем ты думаешь, глядя на это?..

avatar
Nagasaki
royal pingvin

Количество сообщений : 227
Возраст : 26
Откуда : Kazakhstan, Karaganda
Дата регистрации : 2008-07-23

Посмотреть профиль http://tokiohotel-kz.gip-gip.ru

Вернуться к началу Перейти вниз

Re: Аккорды,ноты, табулатуры к песням

Сообщение автор SANCHES в Вт Авг 05, 2008 3:53 am

ЧТо правда то правда Вик! я сама фигею О_о
avatar
SANCHES
True-бугиKid

Количество сообщений : 61
Возраст : 26
Откуда : Караганда ( ass of the world)
Дата регистрации : 2008-08-05

Посмотреть профиль

Вернуться к началу Перейти вниз

Re: Аккорды,ноты, табулатуры к песням

Сообщение автор SANCHES в Вт Авг 05, 2008 3:54 am

Nagasaki пишет:Благо - только она здесь эти заклятия понимает. xD
из всех этих заклятий я поняла только одно заклятие х)
avatar
SANCHES
True-бугиKid

Количество сообщений : 61
Возраст : 26
Откуда : Караганда ( ass of the world)
Дата регистрации : 2008-08-05

Посмотреть профиль

Вернуться к началу Перейти вниз

Re: Аккорды,ноты, табулатуры к песням

Сообщение автор Nagasaki в Вт Авг 05, 2008 3:58 am

Ну... одно заклятие - уже страшно! Так что... мы терь будем тя дружно бояться... х)

_________________
.Royal.

>_<
А о чем ты думаешь, глядя на это?..

avatar
Nagasaki
royal pingvin

Количество сообщений : 227
Возраст : 26
Откуда : Kazakhstan, Karaganda
Дата регистрации : 2008-07-23

Посмотреть профиль http://tokiohotel-kz.gip-gip.ru

Вернуться к началу Перейти вниз

Re: Аккорды,ноты, табулатуры к песням

Сообщение автор SANCHES в Вт Авг 05, 2008 4:29 am

вот парчка видео уроков =)
final day
http://ru.youtube.com/watch?v=YgrGZm9P1ko
Ich bin nicht ich
http://ru.youtube.com/watch?v=0quGPBV5JQQ&feature=related
avatar
SANCHES
True-бугиKid

Количество сообщений : 61
Возраст : 26
Откуда : Караганда ( ass of the world)
Дата регистрации : 2008-08-05

Посмотреть профиль

Вернуться к началу Перейти вниз

Re: Аккорды,ноты, табулатуры к песням

Сообщение автор Спонсируемый контент


Спонсируемый контент


Вернуться к началу Перейти вниз

Вернуться к началу


 
Права доступа к этому форуму:
Вы не можете отвечать на сообщения